Send Me An Angel

Исполнитель:
Scorpions (Скорпионс)
Формат:
pdf
Размер файла:
428 Кб
Загрузили:
2849 раз



Текст песни c аккордами:
Intro:
e|---0--------0---------------------------0---------0---------------------------|
B|-----0--------0------3--------3-----------0---------0------------3---------|
G|-------0--------0------2-0------2-----------0---------0------2-------2---|  :2 раза
D|-2-----------------0--------------4---2--------------------4---4---4---4--|
A|----------3-----------------2------------------3---------5--------------------|
E-----------------------------------------------------------------------------------|
Verse 1:
  Em       Cmaj     Em/H       Em/G   Em       Cmaj      D

e|---0--------0--------0--------0--------0--------0------------------------|
B|-----0--------0--------0--------0--------0--------0------------3--------|
G|-------0--------0--------0--------0--------0--------0------2-------2---|   :4 раза
D|-2-----------------------------------2-------------------4---4---4---4---|
A|----------3--------2--------------------------3--------5-------------------|
E-----------------3-------------------------------------------------------------|
The wise man said just walk this way
To the dawn of the light.
The wind will blow into your face,
As the years pass you by.
Hear this voice from deep inside -
It´s the call of your heart.
Close your eyes and your will find
the passage out of the dark.
Chorus 1:
   F#m              E                    C#m                 D         E

e|---------2---------------------------------------9----------------5-----------|
B2---2-------------0---------------------9---9---7---------9------7|
G--2--------1-----------1---------9--------9----------7---------9---| :2 раза
D|---4---4------------2---2----------------11---11--------------7-----9--|
A------------------------------------------------5---------7-------------|
E|-2----------------0--------------------9--------------------------------------|
Here I am
Will you send me an angel.
Here I am
In the land of the morning star.
Проигрыш:
e|---2--------2---------------------------2---------2----------------------|
B---2------5--------5-----------2---------2------------5-------|
G|-------2--------2------4-2------4-----------2---------2------4-------4---|  :2 раза
D|-4-----------------2--------------6---4--------------------6---6---6---6-|
A|----------5-----------------4------------------5---------7---------------|
E--------------------------------------------------------------|
Verse 2:
  F#m      Dmaj     F#m/C#   F#m/A    F#m      Dmaj     E

e|---2--------2--------2--------2--------2--------2------------------------|
B---2--------2--------2--------2--------2------------5-------|
G|-------2--------2--------2--------2--------2--------2------4-------4---|   :2 раза
D|-4-----------------------------------4-------------------6---6---6---6---|
A|----------5--------4--------------------------5--------7-------------------|
E-----------------5------------------------------------------|
The wise man said just find your place
In the eye of the storm.
Seek the roses along the way,
Just beware of the thorns.
Chorus 2:
(Играется боем)

G#m    F#  D#m

Here I am
          E         F#

Will you send me an angel
G#m    F#  D#m

Here I am
        E          F#        Em

In the land of the morning star
Сразу после Chorus 2 проигрыш в Em:
e|---0--------0---------------------------0---------0----------------------|
B|-----0--------0------3--------3-----------0---------0------------3-------|
G|-------0--------0------2-0------2-----------0---------0------2-------2---|  :2 раза
D|-2-----------------0--------------4---2--------------------4---4---4---4-|
A|----------3-----------------2------------------3---------5---------------|
E--------------------------------------------------------------|
Verse 3 (играется также, как и Verse 1):
e|---0--------0--------0--------0--------0--------0-----------------------|
B|-----0--------0--------0--------0--------0--------0------------3-------|
G|-------0--------0--------0--------0--------0--------0------2-------2---|   :4 раза
D|-2-----------------------------------2-------------------4---4---4---4-|
A|----------3--------2--------------------------3--------5---------------|
E-----------------3------------------------------------------|
The wise man said just raise your hand
And reach out for the spell.
Find the door to the promised land
Just believe in yourself.
Hear this voice from deep inside
It´s the call of your heart.
Close your eyes and you will find
the way out of the dark.
Chorus 3 (также, как и Chorus 1, только боем):

F#m    E  C#m

Here I am
          D         E

Will you send me an angel
F#m    E  C#m

Here I am
        D          E        F#m

In the land of the morning star
Chorus 3 повторяется до конца песни