When Doves Cry

Исполнитель:
Prince (Принс)
Формат:
pdf
Размер файла:
367.3 Кб
Загрузили:
171 раз

См. также: ноты произведения When Doves Cry для фортепиано и вокала




Текст песни c аккордами:
Play it very slow at 1st and work up.
Intro:
       tr.
E-----12-------------------------------------------------------------14-14-15-14-14(14)--
B--15----15-12-13-12------12---------------------------------------------------------------
G-----------------------------14--------14-12---------------------------------------------------
D----------------------------------------------------14-12----------------------------------------
A----------------------------------------------------------------14---------------------------------
E-----------------------------------------------------------------------------------------------------
E--x---------------------------------------------------------------------------------------------
B-------------------------------------------------------------------------------------------------
G-------------------------------------------------------------------------------------------------
D--------4--------2-4-2-2-4-2-0----------------2-4----------2-4-2-2-2-4-2-etc.--
A----2-2-2-2-2---------------------0-2-2-2-2--------2-2-2-----------------------------
E--------------------------------------------------------------------------------------------------
Piano chord strikes:
F  Am  G  /F  Am  G  /F  Am  G  /F  Am  G  /
Verse:
(Am) Dig if U will.. (Dm/A) picture.. (G) U and I.. (E7+5/G#) kiss.. (E7/G#)
Ending keyboard part 4 guitar:
E----------------------------------------------------------------------------------------------------
B----------------------------------------------8-9-10-12-10-12-13-12-13-15-13-15--
G--------------------5-4-5-7-5-7-9-10--------------------------------------------------------
D--7-6-7-9-7-9----------------------------------------------------------------------------------
A-----------------------------------------------------------------------------------------------------
E-----------------------------------------------------------------------------------------------------
E--12-13-15-16-17---
B----------------------------
G----------------------------
D----------------------------
A----------------------------
E----------------------------
Text:
 Dig if u will the picture
 Of u and I engaged in a kiss
 The sweat of your body covers me
 Can u my darling
 Can u picture this?
 Dream if u can a courtyard
 An ocean of violets in bloom
 Animals strike curious poses
 They feel the heat
 The heat between me and u
 How can u just leave me standing?
 Alone in a world that's so cold? (So cold)
 Maybe I'm just 2 demanding
 Maybe I'm just like my father 2 bold
 Maybe you're just like my mother
 She's never satisfied (She's never satisfied)
 Why do we scream at each other
 This is what it sounds like
 When doves cry
 Touch if u will my stomach
 Feel how it trembles inside
 You've got the butterflies all tied up
 Don't make me chase u
 Even doves have pride
 How can u just leave me standing?
 Alone in a world so cold? (World so cold)
 Maybe I'm just 2 demanding
 Maybe I'm just like my father 2 bold
 Maybe you're just like my mother
 She's never satisfied (She's never satisfied)
 Why do we scream at each other
 This is what it sounds like
 When doves cry
 How can u just leave me standing?
 Alone in a world that's so cold? (A world that's so cold)
 Maybe I'm just 2 demanding (Maybe, maybe I'm like my father)
 Maybe I'm just like my father 2 bold (Ya know he's 2 bold)
 Maybe you're just like my mother (Maybe you're just like my mother)
 She's never satisfied (She's never, never satisfied)
 Why do we scream at each other (Why do we scream, why)
 This is what it sounds like
 When doves cry
 When doves cry (Doves cry, doves cry)
 When doves cry (Doves cry, doves cry)
 Don't Cry (Don't Cry)
 When doves cry
 When doves cry
 When doves cry
 When Doves cry (Doves cry, doves cry, doves cry
 Don't cry
 Darling don't cry
 Don't cry
 Don't cry
 Don't don't cry