Everytime (2)

Исполнитель:
Britney Spears (Бритни Спирс)
Формат:
pdf
Размер файла:
1.7 Мб
Загрузили:
2523 раза

См. также: ноты произведения Everytime для фортепиано и вокала




Реклама
Текст песни c аккордами:
intro/verse:
(play this while u sing)
   C          G          C          Am

E|--------0---------0-----------0---------0-|
B|----------1-3-------3-----------1-0-------|
G|--------------0-----------------------2---|
D|----2-----------0---------2---------2-----|
A|-3----3----------------3----3-----0-------|
E|------------3-----------------------------|

 C       G

Notice  me
C              Am

And  take my hand
C               G

So   why are  we
C           Am

Strangers when
   Em            C              Em          C(..without me?)
E|--------0---------------0-------------0---0~let ring----|
B|----0------0-------1-----1-------0------0-1~------------|
G|--------------0-----------0---------------0~------------|
D|-2----2--------2-----2--------2----2------2~------------|
A|-2----2--------3-----3--------2----2------3~------------|
E|--------------------------------------------------------|
Em             C

  Our  love is strong
Em              C

   Why carry on without me?
Chrous:
-------
(strum)
C                 G            Am              Em

  And everytime I try to fly I fall without my wings
          F                Dm

I feel so small. I guess I need you baby
C                 G             Am                Em

  And everytime I see you in my dreams I see your face,
              F             Dm

You're haunting me. I guess I need you baby
Verse2:
-------
C            G

  I  make believe
C              Am

  That you are here
C               G

  It's the only way
C           Am

  I  see    clear
Em             C

  What have I  done
Em             C

  You seem  to move on easy
Chrous:
-------
C                 G            Am              Em

  And everytime I try to fly I fall without my wings
          F                Dm

I feel so small. I guess I need you baby
C                 G             Am                Em

  And everytime I see you in my dreams I see your face,
              F             Dm

You're haunting me. I guess I need you baby


Am    Em               F

    I may have made it rain
Dm                 Am

    Please forgive me
Am     Em                  F

    My weakness caused you pain
         Dm

And this song is my sorry

C  G  Am  Em  C G C Am
    Ohhhh
Em           C

  At night I pray
Em              C

 That soon your face Will fade away
Chrous:
-------
C                 G            Am              Em

  And everytime I try to fly I fall without my wings
          F                Dm

I feel so small. I guess I need you baby
C                 G             Am                Em

  And everytime I see you in my dreams I see your face,
              F             Dm

You're haunting me. I guess I need you baby