Word Without Love

Исполнитель:
Beatles (Битлз)
Формат:
pdf
Размер файла:
290.9 Кб
Загрузили:
189 раз

См. также: ноты произведения And I Love Her для гитары/вокала




Реклама
Текст песни c аккордами:
Intro:
	bass [2X]:
	 v   v   v   v 
	-----------------------
	-2-----2--------------
	-------------2-----2-
	-----------------------
	electric 12-string [enters 2nd time]:
	                  (E)
	 v   v   v   v     v
	----------------------|---
	----------------------|---
	---------6-4--------|---
	----------------6-4-|---
	----------------------|-7-
	----------------------|---
Verse 1:

	      E              G#7

	[1: Please] lock ....
	     C#m

	And don't ...
	        E            Am6           E

	Here inside, where I ...
	         F#m                         B7

	I don't care what ...
	                    E   [1, 3: C7 B7   5: to coda]
	In a world ....
Verse 2:
	Birds sing out ...
	And rainclouds ....
	I'm OK, here I'll ...
	I don't care what they say...
	                    E     E9

	In a world ...
Chorus:

	Am6

	So I'll wait, and ....
	E

	I will see my ...
	Am6

	She may come, ...
	F#m                  C7

	When she does, ...
	    B7         E

	So baby ....
[repeat 1st verse]
[organ solo over 2nd verse chords]
[repeat chorus]
[repeat 1st verse]
Coda:

	E   C#7          F#m                        B7

	        I don't care what ...
	                    E     C#7

	In a world ....
	electric 12-string:

	      F#m                B7                E

	 v     v   v   v   v     v   v   v   v     v
	-------|---------------------|------------------------|---
	-------|---------------------|------------------------|---
	-------|------------6-----6-|------------------------|---
	-7-6-|-----6--7------7----|-9--7--6-------------|---
	-------|-9-------------------|-------------9--7--6-|-7-
	-------|---------------------|------------------------|---
	       ^^^^^^^ ^^^^^^^   ^^^^^^^ ^^^^^^^
	                    triplets