Mother Nature's Son

Исполнитель:
Beatles (Битлз)
Формат:
pdf
Размер файла:
975.7 Кб
Загрузили:
249 раз

См. также: ноты произведения Your Mother Should Know для гитары/вокала




Реклама
Текст песни c аккордами:
D Dsus4 D Bm E

Born a poor young country boy Mother Nature`s son
A D Dm G D

All day long I`m sitting singing songs for everyone

D Dsus4 D Bm E 

Sit beside a mountain stream See her waters rise
A D Dm G D

Listen to the pretty sound of music as she flies

D G D

Do do do do do do do do do do do 
D G D Dmaj7 D7

do do do do do do do do do 
G Gm

Do do do do do do do do 
D

Yeah yeah yeah

D Dsus4 D Bm E

Find me in my field of grass Mother Nature`s son
A D Dm G D

Swaying daisies sing a lazy song beneath the sun

D G D

Do do do do do do do do do do do 
D G D Dmaj7 D7

do do do do do do do do do 
G Gm

Do do do do do do do do 
D

Yeah yeah yeah

D Dsus4 D Bm E A D Dm G D

D Dm G D

Oh Mother Nature`s Son
Intro:
E --2-3-2-1-3-5-3-5-3-2----------------------------------------
B --3-----3-----0-----3----------------------------------------
G --2-----2-----0-----2----------------------------------------
D --0-----0-----0-----0----------------------------------------
A -------------------------------------------------------------
E -------------------------------------------------------------
Middle Lead (play along with the "do do do" part):
E ----0-2-------0---2---3-2-0---2---2-------0---2---3-2-0---2--
B --3---3---3---3---3---0---0-3-3---3---3---3---3---0---0-3-3--
G --2-------2---------------------------2----------------------
D --0-----0---0---0---0-----------0---0---0---0---0------------
A -------------------------------------------------------------
E -------------------------------------------------------------
E ---2-2---0-2-3-2-2-0------------------------------------------
B ---2-1-3-------------3----------------------------------------
G ---2-2---------------0----------------------------------------
D ---0-0---------------0----------------------------------------
A ---------------------2----------------------------------------
E ---------------------3----------------------------------------