Hello Goodbye

Исполнитель:
Beatles (Битлз)
Формат:
pdf
Размер файла:
286.2 Кб
Загрузили:
662 раза

См. также: ноты произведения Goodbye для гитары/вокала




Реклама
Текст песни c аккордами:
Intro:Piano and fiddle
F6              C         G7              Am

You say yes__   I say no_ You say stop and I say go go go
G7     Am(Fill #1)  G7
Chorus:
G7   C/G     G7     F/G        C

You say goodbye and I say hel-lo
C/B          Am7   Am7/G        F                Ab

hel-lo hel-lo      I don't know why you say goodbye
C C/B    Am7    Am7/G        F

I say hello   hel-lo hel-lo I don't know why you say
Bb               C

goodbye_ I say hello.
guitar fill # 1 :
e-------------------------------------
b----------10(12)-10------------------
g-------------------------------------
d-------------------------------------
a-------------------------------------
e-------------------------------------(pre bend and release.
Chorus guitar part:
e--------------------|--------------------|--------------
b--------------------|--------------------|--------------
g--------------2-4-5-|(5)---------------2-|(2)-----------
d-------2-3-5--------|-----------2-3-5----|--------------
a--3-5---------------|--------------------|--------------
e--------------------|--------------------|--------------
e--------------------|--------------------|--------------
b--------------------|--------------------|--------------
g--------------2-4-5-|(5)---------------2-|(2)-----------
d-------2-3-5--------|-----------2-3-5----|--------------
a--3-5---------------|--------------------|--------------
e--------------------|--------------------|--------------
e--------------|-----------------------------------------
b--------------|-----------------------------------------
g--1-----------|-----------------------------------------
d-----3--------|-----------------------------------------
a--------5--3__|(3)--------------------------------------
e--------------|-----------------------------------------
F6            C                  G7

why why why why why why  do you say
Am               G7       Am               G7

goodbye   goodbye___      Fill#1   Oh no__
G7  C/G   G7        F/G

You say goodbye and I say hel-lo_
Outro: c major chord
he-la he-ba  he-lo-a  repeat