Walk This Way

Слова и музыка:
Steven Tyler
Исполнитель:
Aerosmith (Аэросмит)
Формат:
pdf
Размер файла:
501.4 Кб
Загрузили:
663 раза



Реклама
Текст песни c аккордами:
(Intro 0:04-0:13) (with half time feel on intro)
|------------------------|----------------------------|-------------------|
|------------------------|----------------------------|-------------------|
|------------------------|----------------------------|-------------------|
|------------------------|----------------------7-----|-------------------|
|-------7-------7--------|-------7-------7------7-----|-------7-------7---|
|-5-6-7---5-6-7---0--x-x-|-5-6-7---5-6-7---5P0--0-(x)-|-5-6-7---5-6-7---0-|
|------------------58--|
|------------------58--|
|------------------69--|
|------------------710-|
|-------7-------7--710-|
|-5-6-7---5-6-7----58--|
(rhythm figure 1)	     (rhythm figure 2)   (rhythm figure 3)
|------------------------|| |--8--8--8--8-8-8--|--8--8--8---8--8--8--|
|------------------------|| |--8--8--8--8-8-8--|-10-10-10--10-10-10--|
|------------------------|| |--9--9--9--9-9-9--|-10-10-10--10-10-10--|
|--------7---10---8-7----|| |-10-10-10---------|-10-10-10------------|
|-----10-------10--------|| |-10-10-10---------|--8--8--8------------|
|--8(8)------------------|| |- 8--8--8---------|---------------------|
(0:13-0:31) (with rhythm figure 1 repeated as necessary)
Back sorta lover 
....
.....
Like this
(0:31-0:39)
|-------------------------|--------------------------|------------------------|
|-------------------------|--------------------------|------------------------|
|-------------------------|--------------------------|------------------------|
|-------------------------|-------------------------7|------------------------|
|-------7-------7---------|-------7-------7---------7|-------7-------7--------|
|-5-6-7---5-6-7---0--x-x-x|-5-6-7---5-6-7---0--5P0--0|-5-6-7---5-6-7---0-x-x-x|
|------------------58--|
|------------------58--|
|------------------69--|
|------------------710-|
|-------7-------7--710-|
|-5-6-7---5-6-7----58--|
(0:39-0:57) (with rhythm figure 1)
See saw sling ...
...
...
But she told me to 
(0:57-1:14)
(w/rhythm fig. 2)
Walk this way
(w/rhythm fig. 3)
Walk this way
(w/rhythm fig. 2)
Walk this way
(etc.)
Walk this way
Walk this way
Walk this way
Walk this way
Walk this way
(1:14-1:23) 
Just gimme a kiss
(solo)
|--11b^^--8h11p8----8----8b^--8-------------------------------|
|---------------11---11--------11-8---------------------------|
|------------------------------------10--8-----8--10b^--8b^---|
|-------------------------------------------10-------------10-|
|-------------------------------------------------------------|
|-------------------------------------------------------------|
|-----------------------------------------------|
|-10b^p8----8----------------------------11b^^--|
|--------10----10---10p8-10p8-11-10-8-----------|
|-------------------------------------10--------|
|-----------------------------------------------|
|-----------------------------------------------|
        A barre
Like this 
((1:23-1:32)
|-------------------------|--------------------------|------------------------|
|-------------------------|--------------------------|------------------------|
|-------------------------|--------------------------|------------------------|
|-------------------------|-------------------------7|------------------------|
|-------7-------7---------|-------7-------7---------7|-------7-------7--------|
|-5-6-7---5-6-7---0--x-x-x|-5-6-7---5-6-7---0--5P0--0|-5-6-7---5-6-7---0-x-x-x|
|------------------58--|
|------------------58--|
|------------------69--|
|------------------710-|
|-------7-------7--710-|
|-5-6-7---5-6-7----58--|
(1:32-1:50)
School girls ...
...
...
Like this
(1:50-1:59)
|----------------------|-------------------------|-------------------------|
|----------------------|-------------------------|-------------------------|
|----------------------|-------------------------|-------------------------|
|----------------------|-------------------------|-------------------------|
|-------7-------7------|-------7-------7---------|-------7-------7---------|
|-5-6-7--5-6-7---0--x-x|-5-6-7---5-6-7---0--x-x-x|-5-6-7---5-6-7---0--x-x-x|
|------------------58--|
|------------------58--|
|------------------69--|
|------------------710-|
|-------7-------7--710-|
|-5-6-7---5-6-7----58--|
(1:59-2:16)
See saw sling ...
......
....	
She told me to 
(2:16-2:33)
Walk this way
Talk this way
Walk this way
Walk this way
Walk this way
Walk this way
Walk this way
Talk this way
(2:33-2:43)
Just gimme a kiss
(solo) (untabable for me, suggestions welcome)
|------------------------------------------------------|
|------------------------------------------------------|
|------------------------------------------------------|
|------------------------------------------------------|
|------------------------------------------------------|
|------------------------------------------------------|
	A barre
Like this
(2:43-3:48) (solo)
(this rhythm figure repeated over solo)
|-------------------|---------------------|
|-------------------|---------------------|
|-------------------|---------------------|
|-------------------|---------------------|
|-------7-------7---|-------7-------7-----|
-5-6-7---5-6-7---0--|-5-6-7---5-6-7---5~~-|
|------------------------------------------------------|
|-----------------------------------10b^---12b^12b^^---|
|------------------------------------------------------|
|--7b^--9b^9b^^--7b^--9b^9b^^--------------------------|
|------------------------------------------------------|
|------------------------------------------------------|
|----------------------12-10----11b^----11b^-11b^^-----|
|--12--13b^13b^^------------12------12----------------|
|------------------------------------------------------|
|------------------------------------------------------|
|------------------------------------------------------|
|------------------------------------------------------|