Wind Of Change

Исполнитель:
Scorpions (Скорпионс)
Формат:
pdf
Размер файла:
487.5 Кб
Загрузили:
4869 раз

См. также: ноты произведения Wind Of Change для фортепиано




Реклама
Текст песни c аккордами:
F   Dm Am G (riff 1)
Version #1.
C                Dm

I follow the Moskva
               C

Down to Gorky Park
                 Dm      Am  G (riff 1)
Listening to the Wind of Change

C                Dm

An August summer night
                 C

Soldiers passing by
                 Dm      Am  G (riff 1)
Listening to the Wind of Change
(whistling)
F   Dm Am7 G (riff 1)
Version #2.
(guitar in) (clean)
The World is closing in
Did you ever think
That we could be so close, like brothers
The Future´s in the air
I´can feel it everywhere
Blowing with the Wind of Change            (drums in at "Change")

CHORUS

(overdrive on)
   C     G         Dm           G

Take me to the magic of the moment
         C     G

on a glory night
              Dm            G             Am

Where the children of tomorrow dream away
   Am/F            G

In the Wind of Change
Version #3.    (clean)
Walking down the street
Distant memories
Are buried in the past forever
I follow the Moskva
Down to Gorky Park
Listening to the Wind of Change
CHORUS      (overdrive)
CHORUS


(less overdrive/clean)
Am

The Wind of change
       G                              Am

Blows straight away into the face of time
                            G

Like a stormwind that will ring the freedom bell
              C

for peace of mind
                    Dm

Let your balalaika sing
                          E      E

What my guitar  wants to say
(solo)    F G, E Am, F G, Am,
              F G, E7 Am, Dm, E


CHORUS

OUTRO:    F, Dm, F, Dm, Am, Dm
   Dm        Am7      G        | Riff 1
|---1-----|----0----|------------------------
|-----3---|------1--|----3------------------
|-------2-|--------0|------4----------------
|-0-------|-2-------|--------5--------------
|----------|----------|-----------------------
|----------|----------|-3---------------------


SOLO

---------------------------------------------------------------------------------------------------------------------------------------
----12-13-12-15b17----12-13-12-15b17~~~~~----------------|-10-12-13-12-10------------------------------
-14----------------14-------------------------------------------------12b14br12~~~~-------12--12b14br12-----------
-----------------------------------------------------------------------------------12-----------------15----15-14-12-10-12
----------------------------------------------------------------------------------------------------------------------------------------
----------------------------------------------------------------------------------------------------------------------------------------
----------------------------------------------------------------------|-------15---18---17---15------15b17--12---15---15b17---
-20b22-----br20---18-182017-------------------------------------------------------------------------------------------------------
----------------------------------------------------------------------|--12----15-14---14----12---15---14---12---------------------
----------------------------7----7-10-9----9--9-10--12---14--------------------------------------------------------------------------
-----------------------------------------------------------------------------------------------------------------------------------------------
-----------------------------------------------------------------------------------------------------------------------------------------------