Purple Rain

Исполнитель:
Prince (Принс)
Формат:
pdf
Размер файла:
427.6 Кб
Загрузили:
607 раз

См. также: ноты произведения Purple Rain для фортепиано и вокала




Текст песни c аккордами:
Used chords are:
C major [C]
|----|----|----|---|---
|-1-|----|----|---|---
|----|----|----|---|---
|----|-2-|----|---|---
|----|----|-3-|---|---
|----|----|----|---|---
A minor 7 [Am7]
|----|----|---|---|---
|-1-|----|---|---|---
|----|----|---|---|---
|----|-2-|---|---|---
|----|----|---|---|---
|----|----|---|---|---
G major [G]
|---|----|-4-|---|---
|---|----|----|---|---
|---|----|----|---|---
|---|----|----|---|---
|---|-1-|----|---|---
|---|----|-2-|---|---
F major [F]
|-1-|----|----|---|---          |-1-|----|----|---|---
|-1-|----|----|---|---          |-1-|----|----|---|---
|-1-|-2-|----|---|---    or   |----|-2-|----|---|---
|-1-|----|-4-|---|---          |----|----|-4-|---|---
|-1-|----|-3-|---|---          |----|----|-3-|---|---
|-1-|----|----|---|---          |----|----|----|---|--- x
F major 4 [F4]
|-1-|---|----|---|---          |-1-|---|----|---|---
|-1-|---|----|---|---          |-1-|---|----|---|---
|-1-|---|-4-|---|---    or   |----|---|-4-|---|---
|-1-|---|-3-|---|---          |----|---|-3-|---|---
|-1-|---|----|---|--- x       |----|---|----|---|--- x
|-1-|---|----|---|---          |----|---|----|---|--- x
Intro: C, C, Am7, Am7, G, G, F, F
Text:
1. [C] I I never meant 2 cause u any [Am7] sorrow.
    [G] I I never meant 2 cause u any [F] pain [F4]
    [C] I I only wanted 2 one time see u [Am7] laughing.
    I [G] only wanted 2 see u laughing
    in the purple [C] rain.
R. Purple rain [F] rain. [F4]
   [F] Purple rain Purple [C] rain.
   [Am7] Purple rain Purple [G] rain.
   I only want to see you baby underneath 
   In the purple [C] rain.
2. I  never wanted 2 be your weekend [C] lover. [Am7]
    [G] I only wanted 2 be some kind of [F] friend, hey. [F4]
    [C] Baby I could never steal u from an[Am7]other.
    [G] Such a shame our friendship had 2 [C] end.
R. Purple rain [F] rain. [F4]
   [F] Purple rain Purple [C] rain.
   [Am7] Purple rain Purple [G] rain.
   I only want to see you baby underneath 
   In the purple [C] rain.
3. Honey I know, I know, I know times are [C] changin'. [Am7]
   [G] It's time we all reach out 4 something [F] new.
   That means u 2[F4]
   [C] U say u want a leader
   [Am7] But u can't seem 2 make up your mind
   I think u better close [G] it.
   And let me guide u 2 the purple [C] rain.
R. Purple rain Purple [F] rain. [F4]
   [F] Purple rain Purple [C] rain.
   If you know what I'm singing about up here
   C'mon raise [Am7] your hand
   [Am7] Purple rain Purple [G] rain
   I only want 2 see u, only want 2 see u
   In the purple [C] rain
   In ..] rain.